Пароль:
Логин:
каталог христианских песен
SvenskaLatviskiБългарски
Русский
БеларускаяEnglishУкраїнська

Партнеры сайта




Guitar tuner / Тюнер для гитары

Забыли тюнер или думаете - а не купить ли...

Хороший (и бесплатный) тюнер для андроида -
Tuner - gStrings Free
(play.google.com/store/apps/details?id=org.cohortor.gstrings&hl=en)
(опробован!!!)

Неплохой тюнер для РС - хотя сторонние шумы иногда мешают + нужен нормальный ...
[2015-12-25 05:53:24]

полная версия новости >>

Алфавитный указатель песен

# - все песни : A : B : C : D : E : F : G : H : I : J : K : L : M : N : O : P : Q : R : S : T : U : V : W : Y : Z : X :
А : Б : В : Г : Д : Е : Ж : З : И : І : Й : К : Л : М : Н : О : П : Р : С : Т : У : Ф : Х : Ц : Ч : Ш : Щ : Э : Є : Я : Ї : Ю :

Пользователи онлайн

Никого нет, а кто же тогда ты)

Статистика сайта

# Всего песен в каталоге 9516
# Всего с аккордами 6516
# Всего с комментариями 3524
# Всего пользователей 8281

Всё возьми (п-2)

Перейти к списку песен, названия которых начинаются на букву В
  • Исполнитель: Hillsong Music Australia
  • Альбом: Mighty to save
  •       Hillsong United (australia)/United We Stand (MusicBook)
  •       Hillsong (Ukraine)/Господь всего
  • Язык: Русский
  • Подобрано: 05.11.2007 7ender
  • Другое название: Take It All
  • Песни альбома:
     

177+3     


<< - Показать версию без аккордов - >>

intro BASS: 

    H H H  H H H  H H H BbBbD#D#  
G|------------------------------------|
D|--------------------------1-1-------|
A|--2-2-2--2-2-2--2-2-2-1-1-----------| 
E|------------------------------------|

or

    H H H  H H H  H H H BbBbD#D#  
G|------------------------------------|
D|------------------------------------|
A|--------------------------6-6-------|
E|--7-7-7--7-7-7--7-7-7-6-6-----------|




H                   Bb     D#m 
Ищем мы тех, кто от Бога далек 
H                      Bb        D#m 
В свободе живём в единстве поем
H                        Bb          D#m 
Пронёс Ты Свой крест, Ты умер и воскрес
H                      Bb       D#m 
Мой Бог всегда Тебе отдам я всё



 solo el.guitar :

    C#       H        Bb       F# G# F# G#
E|-----------------------------14h16-14h16---|
B|--14-14-14-12-12-12------------------------|
G|--------------------15-15-15---------------| 
D|-------------------------------------------| 
A|-------------------------------------------| 
E|-------------------------------------------|

    C#       H        Bb       F# G# F#
E|-----------------------------14h16-14------|
B|--14-14-14-12-12-12------------------------|
G|--------------------15-15-15---------------| 
D|-------------------------------------------|  x 2 
A|-------------------------------------------| 
E|-------------------------------------------|

E|--------------------| 
B|--------------------| 
B|--------------------| 
G|----------------88--|   x  3
D|-999--999--9998888--| 
A|-999--999--9998866--| 
E|-777--777--77766----|  el.guitar w/ verse
   H    H    H  Bb D#m  

E|--------------------| 
B|--------------------| 
G|----------11111111--|  4 times before chorus
D|-666-666--22222222--|   
A|-666-666--22222222--| 
E|-444-444------------|
   G#m G#m  E


H                    Bb         D#m 
Ты Сына послал на землю с небес
H                 Bb           D#m 
Навечно теперь Ты избавил нас всех  
H                        Bb             D#m 
Я правду искал но нашёл я лишь Тебя 
G#m             E 
Мой Бог всегда Тебе отдам я всё




chorus:

  H          F# 
   Иисус живём мы для Тебя
         G#m                 E 
   Жить с Богом не стыдимся мы
  H             F# 
   Хвалу и всё кто мы сейчас
C#m
   Всё, всё, всё возьми 
C#m
   Всё, всё, всё возьми 




solo el.guitar :

C#  H  Bb   F#G# F#G#
C#  H  Bb   F#G# F#


H                    Bb         D#m 
Ты Сына послал на землю с небес
H                 Bb           D#m 
Навечно теперь Ты избавил нас всех  
H                        Bb             D#m 
Я правду искал но нашёл я лишь Тебя 
G#m             E 
Мой Бог всегда Тебе отдам я всё




  H          F# 
   Иисус живём мы для Тебя
         G#m                 E 
   Жить с Богом не стыдимся мы
  H             F# 
   Хвалу и всё кто мы сейчас
C#m
   Всё, всё, всё возьми 
C#m
   Всё, всё, всё возьми                      x 2 times


pre-: 

   H        H            H             H  
  (H)      (C#)         (D#)          (E) - SOLO guitar
E|-------------------------------------------------| 
B|-------------------------------------------------| 
G|-------------------------------------------------| 
D|-9-9-9-9--11-11-11-11--13-13-13-13--14-14-14-14--| 
A|-------------------------------------------------| 
E|-------------------------------------------------| 


E|--------------------------------------------------
B|--------------------------------------------------
G|-6-6-----------3-3----1-1-1----6-6----------------
D|-6-6----6-6----4-4----2-2-2----6-6----6-6----4-4--
A|-4-4----6-6----4-4----2-2-2----4-4----6-6----4-4--
E|--------4-4----2-2--------------------4-4----2-2--
   C#m    G#m    F#     E        C#m    G#m    F#


E|--------------------------------------------------
B|--------------------------------------------------
G|-6-6-----------3-3----1-1-1-0--444444-------------
D|-6-6----6-6----4-4----2-2-2-0--444444-------------
A|-4-4----6-6----4-4----2-2-2-0--222222-------------
E|--------4-4----2-2--------------------------------
   C#m    G#m    F#     E        H
 



 C#m         G#m     F#    E 
Можешь Ты слепым глаза открыть
 C#m        G#m     F# 
Я бегу на свет огня
 C#m       G#m     F#       E
Можешь только ты спасти весь мир
        H
Жизнь моя                                   x 2 times


bass :

H H H  H H H  H H H BbBbD#D# 


  H          F# 
   Иисус живём мы для Тебя
         G#m                 E 
   Жить с Богом не стыдимся мы
  H             F# 
   Хвалу и всё кто мы сейчас
C#m
   Всё, всё, всё возьми 
C#m
   Всё, всё, всё возьми                x 4 raza
C#m
   Всё, всё, всё возьми

  

Добавлено: 05 ноя 2007 | Smile®

  • Guest | 04 Декабрь 2009, 09:10:35 Слава песен классные )))))))
  • Guest | 31 Май 2011, 13:55:50 С ПАСИБО бОГУ ЗА ВАС ВСЕХ ТАК И ПРОДОЛЖАЙТЕ В ДУХЕ Святом памагите играть по цыфрам
  • Guest | 31 Май 2011, 13:59:14 я благодарен БОГУ заваше движение hillsong
  • Guest | 14 Июль 2014, 11:11:00 Bb=F#
    D#m=E