Пароль:
Логин:
каталог христианских песен
SvenskaLatviskiБългарски
Русский
БеларускаяEnglishУкраїнська

Партнеры сайта




Guitar tuner / Тюнер для гитары

Забыли тюнер или думаете - а не купить ли...

Хороший (и бесплатный) тюнер для андроида -
Tuner - gStrings Free
(play.google.com/store/apps/details?id=org.cohortor.gstrings&hl=en)
(опробован!!!)

Неплохой тюнер для РС - хотя сторонние шумы иногда мешают + нужен нормальный ...
[2015-12-25 05:53:24]

полная версия новости >>

Алфавитный указатель песен

# - все песни : A : B : C : D : E : F : G : H : I : J : K : L : M : N : O : P : Q : R : S : T : U : V : W : Y : Z : X :
А : Б : В : Г : Д : Е : Ж : З : И : І : Й : К : Л : М : Н : О : П : Р : С : Т : У : Ф : Х : Ц : Ч : Ш : Щ : Э : Є : Я : Ї : Ю :

Пользователи онлайн

Никого нет, а кто же тогда ты)

Статистика сайта

# Всего песен в каталоге 9510
# Всего с аккордами 6511
# Всего с комментариями 3524
# Всего пользователей 8280

ВРЕМЯ ПРИШЛО

Перейти к списку песен, названия которых начинаются на букву В
  • Исполнитель: Hillsong (Ukraine)
  • Альбом: Алтарь
  • Язык: Русский
  • Номер дорожки: 2
  • Подобрано: Smile® / 7ender
  • Другое название: Идёт война
  • Тематика: Любовь  Прославление  
  • Песни альбома:
     

194+2     


<< - Показать версию без аккордов - >>

Время Пришло

Слова и музыка: Роман Касевич
2008 Hillsong
альбом «Алтарь», track # 02

Intro:

1st el. guitar

E|----------------------------------------
H|8-------12--10---8--7-------12--10---8--
G|9-------12--11---9--7-------12--11---9--

E|----------------------------------------
H|-5------------------12----------11------
G|-5------------------14----------12------  - 3 times


2nd el. guitar on a 3rd time:

E|--12----------10----------
H|--------12----------10--12
G|--------------------------

E|--12----------10----------
H|--------12----------10--12
G|--------------------------

E|--------------------------
H|--13----------12----------
G|--------12----------------

E|--------------------------
H|--10----------8-----------
G|--------------------------


solo:

E|-7/8\7-5-----5-----7---
H|---------5-8---5-8---5-
G|-----------------------

E|-7/8\7-5-----5-----7---
H|---------5-8---5-8-----
G|-----------------------


смысл примерно таков  :)

куплет
Идет война за души людей
И время пришло объединиться
На Слове Твоем мы будем стоять
И ни за что мы не сдадимся


мостик
Ведь на земле мы посланники Твои
Мы руки Твои
Мы ноги Твои
Используй нас
Бог! Мы готовы идти!


припев
Твою любовь мы несем в этот мир
Нам все равно кто против нас
И не удержать нас на месте
Мы не воюем за деньги и власть
Пусть мир узнает силу спасения

 

Добавлено: 15 ноя 2011 | Smile®

  • Guest | 18 Ноябрь 2011, 05:26:24 Большое СПАСИБО!!! правда очень подходит))))
  • Guest | 10 Январь 2012, 18:15:11 а аккорды есть к этой песне?