Password:
Login:
enter Registration      
HOME FORUM DVA DONATE
каталог христианских песен
SvenskaLatviskiБългарскиРусскийБеларуская
English
Українська

Partners of site




Guitar tuner / Тюнер для гитары

Забыли тюнер или думаете - а не купить ли...

Хороший (и бесплатный) тюнер для андроида -
Tuner - gStrings Free
(play.google.com/store/apps/details?id=org.cohortor.gstrings&hl=en)
(опробован!!!)

Неплохой тюнер для РС - хотя сторонние шумы иногда мешают + нужен нормальный ...
[2015-12-25 05:53:24]

полная версия новости >>

Alphabetical pointer of songs

# - все песни : A : B : C : D : E : F : G : H : I : J : K : L : M : N : O : P : Q : R : S : T : U : V : W : Y : Z : X :
А : Б : В : Г : Д : Е : Ж : З : И : І : Й : К : Л : М : Н : О : П : Р : С : Т : У : Ф : Х : Ц : Ч : Ш : Щ : Э : Є : Я : Ї : Ю :

Users on-line

Никого нет, а кто же тогда ты)

Statistics of site

# In all the songs in a catalogue 9638
# In all with chords 6625
# In all with comments 3642
# In all the users 8375

Осень

To pass to the list of songs which names begin on the letter О
  • Artist: Спасение
  • Album: acoustic
  • Language: Русский
  • Track Number: 4
  • Тематика: Прославление  
  • Songs of the album:
     

5058+9     


<< - Показать версию c аккордами - >>

Слова и музыка: группа "Спасение"
Альбом: "Acoustic" (2008), track # 04

В городе тихая осень,
Первые дни октября.
Клён как-то листья сбросил
И стала другой земля.

Оделась она царицей
Всего на несколько дней.
Но как просветлели лица
У проходящих людей.


[припев]
Осень, красивую осень
Бог подарил земле.
Осень, красивую осень
Я попросил себе.



Бог так одевает лилию,
Цветущую несколько дней
Что Соломон великий
Меркнет при славе своей.

Но верных одел Бог лучше
В праведной жизни своей
Чтоб просветлели души
Рядом идущих людей.

[припев]

 

Added: 20 сен 2009 | Vlad

  • bogdan | 19 Февраль 2010, 01:57:33 лично я сам подобрал без всяких проблем)) но кому надо, могу помочь с табами))
  • Bogdan | 26 Январь 2011, 14:15:42 Kapodastr na 2 lady

    E|----------5---4---0----0-------0-----------------------5/4-----------------------0---
    H|--------0------------5-------5----5-----5-----------5--------------0----------5-----
    G|------0-------------------------------0-----------4------------4-------------0-------
    D|----4-----------------------------------------0---------------------------------------
    A|------------------------------5-------------------------------------------------------
    E|----------------------------------------------------------------------------0----------

    E|----5---4---0------0------0------------------------5/4----------------------------------0---
    H|----------------5-------5----5-----5------------5-------------0------------------5/7--------
    G|---------------------------------0------------4------------4------4---------------------------
    D|----4-------------------------------------0-----------------------------------0---------------
    A|------------------------5----------------------------------------------------------------------
    E|---------------------------------------------------------------------------0-------------------

    pripev na akordax Cadd9 D Em7 G (pereborom)
    a na vtoroj kryg idet Cadd9 D Em7 i vot takoe

    E|----5----5----7----9----7---
    H|------------------------------
    G|----0----6----7----9----7---

    dalwe opjat akordu kypleta