Пароль:
Логин:
каталог христианских песен
SvenskaLatviskiБългарски
Русский
БеларускаяEnglishУкраїнська

Партнеры сайта




Guitar tuner / Тюнер для гитары

Забыли тюнер или думаете - а не купить ли...

Хороший (и бесплатный) тюнер для андроида -
Tuner - gStrings Free
(play.google.com/store/apps/details?id=org.cohortor.gstrings&hl=en)
(опробован!!!)

Неплохой тюнер для РС - хотя сторонние шумы иногда мешают + нужен нормальный ...
[2015-12-25 05:53:24]

полная версия новости >>

Алфавитный указатель песен

# - все песни : A : B : C : D : E : F : G : H : I : J : K : L : M : N : O : P : Q : R : S : T : U : V : W : Y : Z : X :
А : Б : В : Г : Д : Е : Ж : З : И : І : Й : К : Л : М : Н : О : П : Р : С : Т : У : Ф : Х : Ц : Ч : Ш : Щ : Э : Є : Я : Ї : Ю :

Пользователи онлайн

Никого нет, а кто же тогда ты)

Статистика сайта

# Всего песен в каталоге 9460
# Всего с аккордами 6482
# Всего с комментариями 3509
# Всего пользователей 8265

Верю я

Перейти к списку песен, названия которых начинаются на букву В
  • Исполнитель: Hillsong (Ukraine)
  • Альбом: Господь всего
  • Язык: Русский
  • Номер дорожки: 10
  • Подобрано: 31.10.07 7ender
  • Другое название: I Believe
  • Тематика: Прославление  
  • Песни альбома:
     

864+6     


<< - Показать версию без аккордов - >>

vstuplenie :


   Em        Em Em Em    C         D  D  D

   Em        Em Em Em    C         Am Am Am

E|-7---------7--7--7-----3---------5--5--5----
H|-8---------10-10-10----5---------7--7--7----
G|-9---------7--7--7-----5---------7--7--7----
D|-9---------9--9--9-----5---------7--7--7----
A|-7---------7--7--7-----3---------5--5--5----
E|-7---------7--7--7-----3---------5--5--5----



zatem vstupaet BASS :


G|---------------------------------------------
D|---------------------------------------------
A|-7-7-5-5-7---5-5-10-10-3-3-3-3-5555555-------
E|---------------------------------------------


G|---------------------------------------------
D|---------------------------------------------
A|-7-7-5-5-7-7-5-5-10-10-3-3-3-3-0-0-0-0-------
E|---------------------------------------------






     Em                                C  D
        Ja znaju dal Ti mne lju4shiy put'
     Em                            C  Am
        Tebja ja vsjo silney ljublju
     Em                           C  D
        Teper ja ve4no v Tvoih rukah
     Em                      C  D
        Verju v Boga na Nebesah




        G      D        Em    
        Verju ja verju ja 
                            D     C
        Verjua ja 4to Ti - Boziy Sin
            G         D        
        Ozivil menja Iisus
     Am7                G/B  C
        Ved' ni kto ne smog menja spasti
               G G G G
        Lish Ti



proigrish - solo igraetsja bistro


E|--------------------
H|--------------------
G|--------------------
D|------------5-7-----
A|-5-7--7-5-7---------  x 8 raz
E|--------------------



   G
Voveki  , voveki
                       C
Tebja vo veki slavlju ja



igraetsja s 3-go raza Vmeste s:"Voveki.."


E|---------------------------8--8--7--7--10--10--8--8-
H|-8--8--7--7--10--10--8--8---------------------------
G|----------------------------------------------------
D|----------------------------------------------------
A|----------------------------------------------------
E|----------------------------------------------------


E|-------------------------8888-7777-1010101010101010-
H|-8888-7777-10101010-8888----------------------------
G|----------------------------------------------------
D|----------------------------------------------------
A|----------------------------------------------------
E|----------------------------------------------------








  

Добавлено: 31 окт 2007 | Smile®

  • Guest | 21 Декабрь 2007, 23:46:05 Bridg
    Играется с 3-го раза вместе с: «Вовеки…»

    E|--------------------------------- - 8--8--7--7--10--10--8--8-
    H|-8--8--7--7--10--10--8--8------8--8--8--8----8---8--8----
    G|---7--7--7--7----7---7--7--7-----------------------------
    D|----------------------------------------------------
    A|----------------------------------------------------
    E|----------------------------------------------------
  • Andrews | 08 Январь 2008, 13:16:21 убрал битую ссылку.
  • arkan | 15 Январь 2008, 11:08:13 а есть где-нибудь небитая ссылка на этот альбом?
    уж больно хочецца послушать
  • Всеволод | 04 Март 2008, 10:39:32 Попробуй здесь. Я отсюда качал. Качество супер. Christiandownloads.ru/load/2
  • Smile® | 04 Март 2008, 11:18:01 christiandl.com
    http://www.tehorng.com/artists.php

    God Bless , enjoy ever more!!!
  • Guest | 22 Ноябрь 2008, 00:47:01 I have a question about the direct translation of the lyrics in the bridge. I am currently studying Russian, and the translation I am coming up with isn't what I think the direct translation is. I am mainly having the problem with the word вовеки. I thought it means never, or in the eyelids, but I don't think either of those are correct. Thanks for any help.
  • Guest | 24 Ноябрь 2008, 21:28:50 I study for interpletor and now help you explain what does "вовеки" mean. You know, our language is very difficult and explanatory, because Russian language has many equal words. Thus. words "вовеки", "навсегда", "вечно", "вечность" can translated into English as forever. But the word "вовеки" may be translated into English as "explanatory".
  • Green | 29 Декабрь 2010, 13:12:46 в табулатах есть ошибки
  • Guest | 11 Декабрь 2017, 15:05:36 Зта нет порусский язык