Пароль:
Логин:
каталог христианских песен
SvenskaLatviskiБългарски
Русский
БеларускаяEnglishУкраїнська

Партнеры сайта




Guitar tuner / Тюнер для гитары

Забыли тюнер или думаете - а не купить ли...

Хороший (и бесплатный) тюнер для андроида -
Tuner - gStrings Free
(play.google.com/store/apps/details?id=org.cohortor.gstrings&hl=en)
(опробован!!!)

Неплохой тюнер для РС - хотя сторонние шумы иногда мешают + нужен нормальный ...
[2015-12-25 05:53:24]

полная версия новости >>

Алфавитный указатель песен

# - все песни : A : B : C : D : E : F : G : H : I : J : K : L : M : N : O : P : Q : R : S : T : U : V : W : Y : Z : X :
А : Б : В : Г : Д : Е : Ж : З : И : І : Й : К : Л : М : Н : О : П : Р : С : Т : У : Ф : Х : Ц : Ч : Ш : Щ : Э : Є : Я : Ї : Ю :

Пользователи онлайн

Никого нет, а кто же тогда ты)

Статистика сайта

# Всего песен в каталоге 9460
# Всего с аккордами 6482
# Всего с комментариями 3509
# Всего пользователей 8266

Великая благодать

Перейти к списку песен, названия которых начинаются на букву В
  • Исполнитель: Нет данных
  • Альбом: Нет альбома
  • Язык: Русский
  • Другое название: Greater Grace
  • Песни альбома:
     

453+3     


<< - Показать версию без аккордов - >>

Великая благодать

Words and Music: Scott Underwood



(интро)
G Gmaj7 Gadd6 Gmaj7 G - 2 р.

(куплет)
G      Gmaj7   Gadd6 Gmaj7        G
 До то- го, как Ты   весь мир создал,
       Gmaj7 Gadd6   Gmaj7      C2
 Во Христе         ме- ня Ты избрал,
        C(#11) C2* C(#11)     C2
 Велику-  ю         дал  благодать;
          C(#11) C2*
 Ты есть Исток,
C(#11)          G  Gmaj7 Gadd6 Gmaj7
 И-  исус есть Путь.

(куплет)

(припев)
   Am  Em C D
Спасение,
      Am  Em C D
Усыновление,
   Am  Em C D
Принятие!
  Am    Em   
Я падаю ниц пред
   C        D
Твоей благодатью,
    G
Господь.

(интро)

(куплет)

(припев)

(припев)

©1995 Mercy / Vineyard Publishing (ASCAP)
Перевод: ©1999 Алексей Казанов


Дополнительная информация:

Альбомы, на которых можно услышать данную песню:
1) "Winds of Worship 8: Live From Langley, B. C. Canada",
Vineyard Music, 1997
2) Scott Underwood, "Take My Life", Vineyard Worship, 2005

Табулатура аккордов:

    G     Gmaj7   Gadd6     C2    C(#11)   C2*      Am     
Em      C       D
e|--3-------2-------0-------3-------2-------0-------0-------0-------0-------2-----
B|--3-------3-------3-------3-------3-------3-------1-------0-------1-------3-----
G|--0-------0-------0-------0-------0-------0-------2-------0-------0-------2-----
D|--0-------0-------0-------X-------X-------X-------2-------2-------2-------0-----
A|--X-------X-------X-------3-------3-------3-------0-------2-------3-------X-----
E|--3-------3-------3-------X-------X-------X-------X-------0-------X-------X-----

Аккорды в аранжировке оригинала на "Winds of Worship 8: Live
From Langley, B. C. Canada":

(интро)
A2 Amaj9 A6/9 Amaj9* A6/9 Amaj9 - 2 р.

(куплет)
A2 Amaj9 A6/9 Amaj9* A6/9 Amaj9 - 2 р.
Dmaj13 D6/9 D6/9* D13(#11) D6/9* D6/9 - 2 р.

(припев)
Bm F#m D E - 4 р.
A2

Табулатура аккордов (классно звучит, попробуйте сыграть,
достаточно просто):

    A2  Amaj9   A6/9   Amaj9*  Dmaj13   D6/9   D6/9* 
D13(#11)  Bm   F#m    D     E
e|--0-----0------0-------0-------0-------0-------0-------0-------2-----2-----2-----0-----
B|--0-----0------0-------0-------0-------0-------0-------0-------3-----2-----3-----0-----
G|--6-----4------2-------1-------6-------4-------2-------1-------4-----2-----2-----1-----
D|--7-----6------4-------2-------0-------0-------0-------0-------4-----4-----0-----2-----
A|--0-----0------0-------0-------X-------X-------X-------X-------2-----4-----X-----2-----
E|--X-----X------X-------X-------X-------X-------X-------X-------X-----2-----X-----0-----


 

Добавлено: 16 июл 2007 | rudik