Пароль:
Логин:
каталог христианских песен
SvenskaLatviskiБългарски
Русский
БеларускаяEnglishУкраїнська

Партнеры сайта




Guitar tuner / Тюнер для гитары

Забыли тюнер или думаете - а не купить ли...

Хороший (и бесплатный) тюнер для андроида -
Tuner - gStrings Free
(play.google.com/store/apps/details?id=org.cohortor.gstrings&hl=en)
(опробован!!!)

Неплохой тюнер для РС - хотя сторонние шумы иногда мешают + нужен нормальный ...
[2015-12-25 05:53:24]

полная версия новости >>

Алфавитный указатель песен

# - все песни : A : B : C : D : E : F : G : H : I : J : K : L : M : N : O : P : Q : R : S : T : U : V : W : Y : Z : X :
А : Б : В : Г : Д : Е : Ж : З : И : І : Й : К : Л : М : Н : О : П : Р : С : Т : У : Ф : Х : Ц : Ч : Ш : Щ : Э : Є : Я : Ї : Ю :

Пользователи онлайн

Никого нет, а кто же тогда ты)

Статистика сайта

# Всего песен в каталоге 9503
# Всего с аккордами 6506
# Всего с комментариями 3519
# Всего пользователей 8276

Ты не отступишь (+табы)

Перейти к списку песен, названия которых начинаются на букву Т
  • Исполнитель: Jesus Culture
  • Альбом: Your Love Never Fails
  • Язык: Русский
  • Подобрано: Владимир Шелогуров
  • Другое название: You Won't Relent
  • Тематика: Любовь  Бог  Поклонение  Дух Святой  Пророческое Поклонение  Романс  Верность  
  • Песни альбома:
     

115+2     


<< - Показать версию без аккордов - >>

Misty Edwards - You Won't Relent
Перевод для группы VNL Worship 
C#m | A | E | F#m

Ты не отступишь пока не смиришь
Сердце мое

Печать Твоей любви в сердце моем,
Перстнем на руке моей,
Ведь есть любовь, что сильна как смерть,
Ревность, что как молния с небес
Большие воды
Не зальют Твою любовь

Приди, будь пламенем на мне,
Приди, огнем во мне гори
Приди, будь пламенем на мне,
Пока не станем мы одним

Больше не хочу говорить я
Будто Ты далеко
Лишь смотреть на Тебя хочу
Петь Тебе, Господь

Мы не хотим ничего
Мы не хотим ничего
Мы не хотим ничего,
Лишь Тебя, Бог

Для гитаристов:
Собственно подобранный точный таб.
Видео на Youtube:
http://www.youtube.com/watch?v=p_-9E98Htp0

E-----------------------------
B--------4-5-4---0------------
G------6-------6-------2s4s6--
D----6---------------2--------
A--4---------------0----------
E-----------------------------

E--------------------------0--
B------------------------0----
G------1---------------2------
D----2-----4---2-----2--------
A-----------------------------
E--0-----0---0---0-2----------

 

Добавлено: 17 фев 2011 | ShelogurOFF

  • ShelogurOFF | 17 Февраль 2011, 11:37:39 Как только услышал эту песню в переводе Нового Поколения (всем известная Ты ждешь когда я приду к Тебе), и поискал другие переводы этой песни, понял, что нужно делать свой перевод для нашей церкви. Поем больше года. Кто владеет английским - поймет :)
  • Guest | 23 Август 2011, 21:19:10 только табы кажысь отак будут:
    E-----------------------------
    B--------4-5-4---0------------
    G------6-------6-------2s4s6--
    D----6---------------2--------
    A--4---------------0----------
    E-----------------------------
  • Guest | 24 Август 2011, 09:37:35 E--------------------------3------
    B--------4-5-4-2---------2---2----
    G------6---------4-----2------2---
    D----6---------------2---------2---
    A--4---------------------------------
    E------------------5--------------



    E--------4-2-----------------2--
    B------------5-2-----------2---2-
    G------4---------------2------
    D----2-------------4--------
    A--------------4---------------
    E------------------------


  • ShelogurOFF | 24 Август 2011, 20:27:18 Guest | 23 Август 2011 - спасибо за подсказку, исправил. Просто перепутал струну - писал по памяти.

    Guest | 24 Август 2011 - чтобы сыграть на гитаре ПОХОЖЕ - есть over9000 способов. А чтобы ТАК ЖЕ - только один. В этих табах я расписал, как эту песню играет Jeffrey Kunde, в альбоме Jesus Culture "Your Love Never Fails".
  • almas | 25 Декабрь 2011, 16:40:13 Хвала "You won't relent" (Jesus Culture) - "Ты ждёшь, когда я приду к Тебе". Вот ссылка: http://depositfiles.com/files/fvozvkto3 (в архиве 1 плюс и 2 минуса). Благословений!!!