Password:
Login:
enter Registration      
HOME FORUM DVA DONATE
каталог христианских песен
SvenskaLatviskiБългарскиРусскийБеларуская
English
Українська

Partners of site




Guitar tuner / Тюнер для гитары

Забыли тюнер или думаете - а не купить ли...

Хороший (и бесплатный) тюнер для андроида -
Tuner - gStrings Free
(play.google.com/store/apps/details?id=org.cohortor.gstrings&hl=en)
(опробован!!!)

Неплохой тюнер для РС - хотя сторонние шумы иногда мешают + нужен нормальный ...
[2015-12-25 05:53:24]

полная версия новости >>

Alphabetical pointer of songs

# - все песни : A : B : C : D : E : F : G : H : I : J : K : L : M : N : O : P : Q : R : S : T : U : V : W : Y : Z : X :
А : Б : В : Г : Д : Е : Ж : З : И : І : Й : К : Л : М : Н : О : П : Р : С : Т : У : Ф : Х : Ц : Ч : Ш : Щ : Э : Є : Я : Ї : Ю :

Users on-line

Никого нет, а кто же тогда ты)

Statistics of site

# In all the songs in a catalogue 9688
# In all with chords 6674
# In all with comments 3735
# In all the users 8396

Sobrenatural /TABS/ (Espanol)

To pass to the list of songs which names begin on the letter S
  • Artist: Marcos Witt
  • Album: Sobrenatural
  • Language: English
  • Track Number: 6
  • Selected by: Eugene Seredyuk
  • Тематика: Поклонение  Прославление  
  • Songs of the album:
     

499+4     


<< - Показать версию без аккордов - >>

Sobrenatural

INTRO:  (Em)  G  D/F#  Em  C

Em    D   G   Em         D     G
Sobrenatural, eres Dios sin igual
Em          D      G            Cadd9
Dueño del cielo y mar sobrenatural
Em    D   G   Em           D    G
Sobrenatural, habitas la eternidad
Em       D     G            Cadd9
Eres el manantial sobrenatural

::CORO::
G          D/F#       Em
Dios en mi vida eres Dios
         Cadd9        G
De los cielos eres Dios
        D/F#       Em    Cadd9
De los mares eres Dios, Sobrenatural
G        D/F#        Em
  De la tierra eres Dios
       Cadd9       G
Mi sustento eres Dios
         D/F#        C/B    Cadd9
Siempre eterno eres Dios, Sobrenatural

SOLO:      Am    Em  G  D  Am   Em   D

E ------------------------------
A ------------------------------
D ------------------------------
G --------------14------s14-12--
B -s13-13-13-12---s17sd---------
e ------------------------------

E ----------------------------------------------
A ----------------------------------------------
D -12-14-----------------14-----------14-12-12--
G ------12-14-14^-12-12----12-14---11-----------
B ------------------------------12--------------
e ----------------------------------------------

E -----------------------------
A -14--------------------------
D ---12-14---------------------
G --------12-14----------------
B -------------12-15-15s17H----
e -----------------------------

E ---------------------------
A ---------------------------
D ---------------------------
G ---------------------------
B ---------17------17-17-----
e -14-15-14--17b19-----------

E -----------------------------
A -----------------------------
D -----------------------------
G -------------------------14--
B -17-17-----15--15-15---------
e ------14-15---------12-14---

E ---------------------------------
A ---------------------------------
D ---------------14--------14------
G -15-------14-12-----14-12--------
B ---14---15--------15-------------
e ------12--------------------s17--

s = slide
H = Armonico
b = bend
sd = slide down

Escuchenlo muy bien para que puedan sacarlo sale..!!

Em    D   G   Em         D     G
Sobrenatural, eres Dios sin igual
Em          D      G            Am
Dueño del cielo y mar sobrenatural
 G/B       Cadd9 G/B       Am   G/B     Cadd9
 sobrenatural,   sobrenatural,   sobrenatural

Em         D/F#        G
Dios en mi vida eres Dios
         Cadd9       G
De los cielos eres Dios
       D/F#        Em    Cadd9
De los mares eres Dios, Sobrenatural
G        D/F#        C/B
  De la tierra eres Dios
       C           G
Mi sustento eres Dios
         D/F#        Em    Cadd9
Siempre eterno eres Dios, Sobrenatural,

Em  D/F#   G     Em    D/F#   G        Em  D/F#   G   Cadd9
                 Sobre-natu--ral !!!

 

Added: 07 сен 2012 | Eugene