Password:
Login:
enter Registration      
HOME FORUM DVA DONATE
каталог христианских песен
SvenskaLatviskiБългарскиРусскийБеларуская
English
Українська

Partners of site




Guitar tuner / Тюнер для гитары

Забыли тюнер или думаете - а не купить ли...

Хороший (и бесплатный) тюнер для андроида -
Tuner - gStrings Free
(play.google.com/store/apps/details?id=org.cohortor.gstrings&hl=en)
(опробован!!!)

Неплохой тюнер для РС - хотя сторонние шумы иногда мешают + нужен нормальный ...
[2015-12-25 05:53:24]

полная версия новости >>

Alphabetical pointer of songs

# - все песни : A : B : C : D : E : F : G : H : I : J : K : L : M : N : O : P : Q : R : S : T : U : V : W : Y : Z : X :
А : Б : В : Г : Д : Е : Ж : З : И : І : Й : К : Л : М : Н : О : П : Р : С : Т : У : Ф : Х : Ц : Ч : Ш : Щ : Э : Є : Я : Ї : Ю :

Users on-line

Никого нет, а кто же тогда ты)

Statistics of site

# In all the songs in a catalogue 9688
# In all with chords 6674
# In all with comments 3735
# In all the users 8396

Searching For A Savior

To pass to the list of songs which names begin on the letter S

461+6     


<< - Показать версию без аккордов - >>

Searching For A Savior

by Building 429

Capo 1
Intro:(this first part is all three of the guitars for 4
measures)

E5(muted strum, continuously)



Just a boy with something in his heart
Says life doesn't add up
The dreams inside 
Are telling him, seek and you will find

He caught a ride and he left this town
He never came back around
Lord I miss him now but
He had to reach, to make sense of his world

We are all searching for a savior
'Cause no one else will do
When the sky is calling you

We are all desperate for a savior
'Cause no one else will do 
When the sky is calling you
Another town a half world away
There's a child who just can't stay

Oh something else
Is calling her, to another place

She believes that nothing they could say
Would ever take away the pain
Of living life
Without knowing love, or amazing grace

Something's missing from us all

We are all searching for a savior
'Cause no one else will do 
when the sky is calling you 
We are all searching for savior
'Cause no one else will do 
when the sky is calling you
		


		written by Jason Roy

		

Behind the Song:
"This was among the first songs we wrote for "Rise."
It's always amazed me how people from all corners of the
earth search for the same thing their whole lives. Most
of us are unwilling to admit it, but we are hopelessly
lost in this world, and we spend our lives searching for
someone or something that can save us from an
insignificant life. It's the marketing tool that every
company uses, "Buy this and you'll be happy." But money
can't buy what we all search for. From Moscow to Sydney,
from Baghdad to New York, the sky calls out our names
and something inside screams, "I wish I could just
understand." This one thing unites us in spite of all
our differences "the longing to be more." - Jason Roy
(Building 429)
		 
  


_______________________________________________________


Searching For A Savior
Building 429
W&M by Jason Roy
Copyright 2006 Dayspring Music, LLC, Jason Roy Publishing

Ok, I think that there are three guitars in this song
and they're all in 
drop D.  there are  several little riffs that
are played throughout the whole song so please do not
think the chords are for
the tabs.


Capo 1
Intro:(this first part is all three of the guitars for 4
measures)
E5(muted strum, continuously)
g-9-|
d-9-|
a-7-|

guitar 1 continues above 

guitar 2     guitar 3
                A5 
e-3--10--|    d-5-5-5-5-|             
b--0---8-|    a-5-5-5-5-|      }x4      
              D-5-5-5-5-|
 
guitar 2 plays
b-3b5-|

then, all together
F5 C/E C5

then

g-7/9/10-|
d-7/9/10-|
a-5/7/8--|

Verse:
C5 F5
 G5 E5

g-7/9/10-|
d-7/9/10-|
a-5/7/8--|

C5 F5 G5 C5
F5 G5 E5

g-7/9/10-|
d-7/9/10-|
a-5/7/8--|

Prechorus:
D5 F5

Chorus:
A5 F5 C5 G5
E5 F5 A5 G5

guitar 2 plays
b-3b5-|

Verse 2 same as Verse 1 really

Chorus

End of Second Chorus:
d-3/2-2-7/5-0-3
a-3/2-2-7/5-0-3 several times during Bridge
D-3/2-2-7/5-0-3

then
C5 F5 C5 G5

Chorus one more time and then

guitar 2 plays
b-3b5-|

then, all together
d-3/2-2-7/5-0-3-|
a-3/2-2-7/5-0-3-| 
D-3/2-2-7/5-0-3-|


_________________________________________________



Guitar Tabs by: Building 429
Tabs for song: Searching For A Savior

          Bulding 429 Rise 
             
          track 1       
Tuning:Drop C# 
guitar 1                Intro                   
D#|------12--------------12-------------12----------------12------------------|
A#|-10-------------10-------------10----------------10------------------------|
F#|--------11---------------11-------------11----------------11--------14b----|
C#|----11-------------11-----
-------11----------------11---------------------|
G#|---------------------------------------------------------------------------|
C#|---------------------------------------------------------------------------|
guitar 2
D#|---------------------------------------------------------------------------|
A#|---------------------------------------------------------------------------|
F#|----------4---4-----------4--4-------------4---4--------------4--4---------|
C#|----------4---4-----------4--4-------------4---4--------------4--4---
-----|
G#|----------2---2-----------2--2-------------2---2--------------2--2---------|
C#|---------------------------------------------------------------------------|
guitar 1    
|--10-10-10-10-10-----------------------------------------------------------|
|-----------------8-8-8-8------7-7-7-7-7----5 7 8 8 8 8
8 7-----------------|
|---------------------------------------------------------------------------|
|---------------------------------------------------------------------------|
|---------------------------------------------------------------------------|
|---------------------------------------------------------------------------|
guitar 2    
|---------------------------------------------------------------------------|
|---------------------------------------------------------------------------|
|----
7---------------------------------------------------------------------|
|--0or7---6 times---5- -6 times----4-6times---5-6
times-0-------------------|
|--0--5-------------5--------------4----------5---------0-------------------|
|--0----------------5--------------4----------5---------0-------------------|
guitar 1                  Verse
|---------------------------------------------------------------------------------------------------------|
|---------------------------7-8-8-8-8-8-8-8-7-------------------------------------7-8-8-8-8-8-8-----------|
|---------------------------------------------------------------------------------------------------------|
|---------------------------------------------------------------------------------------------------------|
|---------------------------------------------------------------------------------------------------------|
|---------------------------------------------------------------------------------------------------------|
guitar 2
|---------------------------------------------------------------------------------------------------------|
|---------------------------------------------------------------------------------------------------------|
|----------------------------------------------------------------------------------------------------------
|---5-5-----7----4-4--------4--5-5-5-5-5-5-0-0-------5-5---7---4-4---5-5--7-4-4----4-5-5-5-5-5-5----------|
|---5-5-----7----4-4--------4--5-5-5-5-5-5-0-0-------5-5---7---4-4---5-5--7-4-4----4-5-5-5-5-5-5----------|
|---5-5-----7----4-4--------4--5-5-5-5-5-5-0-0-------5-5---7---4-4---5-5--7-4-4----4-5-5-5-5-5-5----------|
 guitar 1                     Pre Chorus
|---------------------------------------------------------------------------|
|---------------------------------------------------------------------------|
|-9 9 9 9
9-----12-12-12-12-12----------------------------------------------|
|-9 9 9 9
9-----12-12-12-12-12----------------------------------------------|
|-7-7-7-7-7-----10-10 10 10
10----------------------------------------------|
|---------------------------------------------------------------------------|
guitar 2
|------------------------------------------------------------------
--------|
|---------------------------------------------------------------------------|
|---------------------------------------------------------------------------|
|-2-2-2-2-2-------5-5-5-5-5-------------------------------------------------|
|-2-2-2-2-2-------5-5-5-5-5-------------------------------------------------|
|-2-2-2-2-2-------5-5-5-5-5-------------------------------------------------|

 

Added: 03 июл 2012 | Eugene