Password:
Login:
enter Registration      
HOME FORUM DVA DONATE
каталог христианских песен
SvenskaLatviskiБългарскиРусскийБеларуская
English
Українська

Partners of site




Guitar tuner / Тюнер для гитары

Забыли тюнер или думаете - а не купить ли...

Хороший (и бесплатный) тюнер для андроида -
Tuner - gStrings Free
(play.google.com/store/apps/details?id=org.cohortor.gstrings&hl=en)
(опробован!!!)

Неплохой тюнер для РС - хотя сторонние шумы иногда мешают + нужен нормальный ...
[2015-12-25 05:53:24]

полная версия новости >>

Alphabetical pointer of songs

# - все песни : A : B : C : D : E : F : G : H : I : J : K : L : M : N : O : P : Q : R : S : T : U : V : W : Y : Z : X :
А : Б : В : Г : Д : Е : Ж : З : И : І : Й : К : Л : М : Н : О : П : Р : С : Т : У : Ф : Х : Ц : Ч : Ш : Щ : Э : Є : Я : Ї : Ю :

Users on-line

Никого нет, а кто же тогда ты)

Statistics of site

# In all the songs in a catalogue 9549
# In all with chords 6542
# In all with comments 3578
# In all the users 8311

Por Ti /TABS/ (Espanol)

To pass to the list of songs which names begin on the letter P
  • Artist: Hillsong Español
  • Album: En Mi Lugar
  • Language: English
  • Track Number: 1
  • Selected by: Eugene Seredyuk
  • Other name: Go
  • Тематика: Поклонение  Прославление  
  • Songs of the album:
     

520+1     


<< - Показать версию без аккордов - >>

Intro Y Versos: B5 (Toda la cancion usa Quintas)
e|-----------------------------------------
B|-12-12-12-12-12-12-12-12-12-12-12--------x3
G|-----------------------------------------

B
Todo lo doy por Ti, por Ti
         E       G#m   E
Quiero seguirte solo a Ti


VERSO 1
B
En el Padre somos libres
B
La Esperanza se encuentra en Su Nombre
B
Entregamos nuestras vidas
B
En Su Amor viviremos por siempre

e|-14--11-----14--11---------------------
B|---14--12-----14--12--12-14s----------x3
G|---------11---------11-----------------

PRE-CORO
E           G#m
En Ti la vida está
B
Encuentro libertad
    E      G#m    F#
Mi vida no será igual


CORO
B
Todo lo doy por ti, por ti
          E     G#m    E
Quiero seguirte solo a ti

G|---------1-------------
D|----------2-2-4--------
A|-2-2-2-2---------------x3
E|------4----------------

e|-----------------------------------------
B|-12-12-12-12-12-12-12-12-12-12-12--------x3
G|-----------------------------------------
VERSO 2
B
Con mi vida hoy Te sirvo
B
Todo lo que yo soy
B
A Ti rindo
B
Mis deseos quiero darte
B
Y por siempre poder reflejarte

ole ole ole ole
e|-----------------------------------------
B|-12-12-12-12-12-12-12-12-12-12-12--------x3
G|-----------------------------------------

PUENTE
C#m E         B             F#
 Abriste mis ojos, puedo ver
F#
La venda quitaste
C#m E       B              F#
 Me diste Tu Vida y Tu Verdad
C#m E       B           F#
Tu fama queremos proclamar
                E
En Ti somos libres
E
En Ti somos libres

CORO
FIN: B


____________________________________________


Intro Y Versos: B5 (Toda la cancion usa Quintas)

Guitarra2 en Intro/Coro: Slide hasta B12 y mantener luego G4
Guitarra1 en Intro/Coro: G4 mantener y luego slide hasta B12

e|-----------------------------------------
B|-1s12-12-12-12-12-12-12-12-12-12-12------x3
G|-----------------------------------------

CORO x 2 (Guit2)
B
Todo lo doy por Ti, por Ti
         E       G#m   E
Quiero seguirte solo a Ti

(entra guitarra 1 con bastante Delay y distorsion tocando
las siguientes cuerdas: G4 y e7 las demas muteadas)

VERSO 1
B
En el Padre somos libres
B
La Esperanza se encuentra en Su Nombre
B
Entregamos nuestras vidas
B
En Su Amor viviremos por siempre

Guit1
e|-14--11-----14--11---------------------
B|---14--12-----14--12--12-14----------x3
G|---------11---------11-----------------

PRE-CORO (Guit2)
E           G#m
En Ti la vida está
B
Encuentro libertad
    E      G#m    F#
Mi vida no será igual

CORO x 2 (full ambas guit)
B
Todo lo doy por ti, por ti
          E     G#m    E
Quiero seguirte solo a ti//... Cantaremos

Guit2
G|-------------1-----------------
D|---------------2-2-2-2-2s4-4-4-
A|-2-2-2-2-2--2------------------x2
E|----------4--------------------

Guit1
e|-----------------------------------------
B|-1s12-12-12-12-12-12-12-12-12-12-12--------x3
G|-----------------------------------------

VERSO 2
B
Con mi vida hoy Te sirvo
B
Todo lo que yo soy
B
A Ti rindo
B
Mis deseos quiero darte
B
Y por siempre poder reflejarte

Guit1
e|-14--11-----14--11---------------------
B|---14--12-----14--12--12-14s----------x3
G|---------11---------11-----------------

PRE-CORO (Guit2)
E           G#m
En Ti la vida está
B
Encuentro libertad
    E      G#m    F#
Mi vida no será igual

CORO x 2 (full ambas guit)
B
Todo lo doy por ti, por ti
          E     G#m    E
Quiero seguirte solo a ti//... Cantaremos

Guit2
G|-------------1-----------------
D|---------------2-2-2-2-2s4-4-4-
A|-2-2-2-2-2--2------------------x6
E|----------4--------------------

Guit1
e|-14--11-----14--11---------------------
B|---14--12-----14--12--12-14s----------x3
G|---------11---------11-----------------

PUENTE
C#m          B             F#
 Abriste mis ojos, puedo ver
F#
La venda quitaste
C#m        B              F#
 Me diste Tu Vida y Tu Verdad
C#m        B           F#
Tu fama queremos proclamar
                E
En Ti somos libres
E
En Ti somos libres

CORO x2 (full)
B
Todo lo doy por ti, por ti
          E     G#m    E
Quiero seguirte solo a ti//... Cantaremos

Guit2
G|-------------1-----------------
D|---------------2-2-2-2-2s4-4-4-
A|-2-2-2-2-2--2------------------x2
E|----------4--------------------

FIN: B
FIN: B

 

Added: 25 сен 2012 | Eugene