Пароль:
Логин:
каталог христианских песен
SvenskaLatviskiБългарски
Русский
БеларускаяEnglishУкраїнська

Партнеры сайта




Guitar tuner / Тюнер для гитары

Забыли тюнер или думаете - а не купить ли...

Хороший (и бесплатный) тюнер для андроида -
Tuner - gStrings Free
(play.google.com/store/apps/details?id=org.cohortor.gstrings&hl=en)
(опробован!!!)

Неплохой тюнер для РС - хотя сторонние шумы иногда мешают + нужен нормальный ...
[2015-12-25 05:53:24]

полная версия новости >>

Алфавитный указатель песен

# - все песни : A : B : C : D : E : F : G : H : I : J : K : L : M : N : O : P : Q : R : S : T : U : V : W : Y : Z : X :
А : Б : В : Г : Д : Е : Ж : З : И : І : Й : К : Л : М : Н : О : П : Р : С : Т : У : Ф : Х : Ц : Ч : Ш : Щ : Э : Є : Я : Ї : Ю :

Пользователи онлайн

Никого нет, а кто же тогда ты)

Статистика сайта

# Всего песен в каталоге 9516
# Всего с аккордами 6516
# Всего с комментариями 3524
# Всего пользователей 8281

Оживи меня

Перейти к списку песен, названия которых начинаются на букву О
  • Исполнитель: Короп Валерий
  • Альбом: Чемпион
  • Язык: Русский
  • Номер дорожки: 11
  • Подобрано: rudik
  • Песни альбома:
     

246+2     


<< - Показать версию без аккордов - >>

Слова и музыка: Валерий Короп
Альбом: "Чемпион", track # 11

Tabbed by Rudik


-------------0----|-------------1-|----------------|------
----------------1-|---------3-----|-----0h1p0------|------
----------0-------|-----2---------|-------------0--|----0-
------------------|-0-------------|----------------|------
-0--2--3----------|---------------|----------------|-0----
------------------|---------------|-0--------------|------


-------------0-----|----------1--|----------------|-0--
-----------------1-|-------3-----|---0---1---0--3-|---
----------0--------|----2--------|----------------|---
-------------------|-0-----------|----------------|----
-0--2--3-----------|-------------|----------------|-0--
-------------------|-------------|-0--------------|----



----------0---3--|-1---0---------|-0------------|----
-1---3-----------|---------3---1-|-----3--1--0--|-1--
-----------------|---------------|--------------|----
-----------------|-0-------------|--------------|----
----------3------|---------------|--------------|-0--
-----------------|---------------|-0------------|----


Вся песня на четырёх аккордах: C - Dm - Em - Am


    C         Dm        Em      Am
Оживи меня Господь по слову Твоему.
    C         Dm       Em      Am
Оживи меня Господь по слову Твоему.
    C    Dm    Em    Am
Оживи меня, оживи меня.
    C         Dm        Em      Am
Оживи меня Господь по слову Твоему.


Буду петь Тебе хвалу ночью я и днём.
Буду петь Тебе хвалу ночью я и днём.
Буду петь Тебе, буду петь Тебе.
Буду петь Тебе хвалу ночью я и днём.

Я люблю Тебя, Иисус всем сердцем и душой.
Я люблю Тебя, Иисус всем сердцем и душой.
Я люблю Тебя, я люблю Тебя.
Я люблю Тебя, Иисус всем сердцем и душой.


Будем жить с Тобой, Господь, в городе Твоём.
Будем жить с Тобой, Господь, в городе Твоём.
Будем жить с Тобой, будем жить с Тобой.
Будем жить с Тобой, Господь, в городе Твоём.

 

Добавлено: 10 сен 2006 | Andrews