Пароль:
Логин:
каталог христианских песен
SvenskaLatviskiБългарски
Русский
БеларускаяEnglishУкраїнська

Партнеры сайта




Guitar tuner / Тюнер для гитары

Забыли тюнер или думаете - а не купить ли...

Хороший (и бесплатный) тюнер для андроида -
Tuner - gStrings Free
(play.google.com/store/apps/details?id=org.cohortor.gstrings&hl=en)
(опробован!!!)

Неплохой тюнер для РС - хотя сторонние шумы иногда мешают + нужен нормальный ...
[2015-12-25 05:53:24]

полная версия новости >>

Алфавитный указатель песен

# - все песни : A : B : C : D : E : F : G : H : I : J : K : L : M : N : O : P : Q : R : S : T : U : V : W : Y : Z : X :
А : Б : В : Г : Д : Е : Ж : З : И : І : Й : К : Л : М : Н : О : П : Р : С : Т : У : Ф : Х : Ц : Ч : Ш : Щ : Э : Є : Я : Ї : Ю :

Пользователи онлайн

Никого нет, а кто же тогда ты)

Статистика сайта

# Всего песен в каталоге 9460
# Всего с аккордами 6482
# Всего с комментариями 3509
# Всего пользователей 8266

Очисти меня (TAB)

Перейти к списку песен, названия которых начинаются на букву О
  • Исполнитель: Церковь "Новое Поколение" г. Рига
  • Альбом: Нет альбома
  • Язык: Русский
  • Подобрано: Smile, Narva
  • Другое название: Я хочу исполнить волю Твою
  • Тематика: Покаяние  
  • Песни альбома:
     

591+5     


<< - Показать версию без аккордов - >>

  Bm       Ebm/Gb   Ebm      F7
E|--------|--------|--------|---------||
H|--------|------4-|------4-|---------||
G|------8-|----6---|----6---|---2-3-5-||
D|----6---|--4-----|--4-----|--3------||
A|--8-----|--------|6-------|-3-------||
D|8-------|4-------|--------|3--------||




  H        Ebm      F7       Bm Ab Gb  
E|--------|--------|--------|----------|
H|--------|------7-|------1-|----------|
G|------7-|----8---|----2---|8--4--3---|
D|----8---|--8-----|--3-----|6--6--4---|
A|--8-----|6-------|3-------|8--6--4---|
D|8-------|--------|--------|8--6--4---|

  Ebm      F7       Bm 
E|--------|--------|--------||
H|------7-|------1-|--------||
G|----8---|----2---|------8-||
D|--8-----|--3-----|----6---||
A|6-------|3-------|--8-----||
D|--------|--------|8-------||




  Gb       Db       Ebm      Bm
E|--------|--------|--------|--------||
H|------7-|------6-|------7-|--------||
G|----6---|----6---|----8---|------8-||
D|--8-----|--6-----|--8-----|----6---||
A|9-------|4-------|6-------|--8-----||
D|--------|--------|--------|8-------||



  Gbmaj9    Gb11     
E|---------|--------|
H|-------9-|------9-|
G|----10---|----8---|
D|--8------|--8-----|
A|9--------|9-------|
D|---------|--------|


Bm               Ebm/Gb    
 Я хочу исполнить волю Твою
   Ebm           F7        
 Прошу, окропи меня Своей кровью
Bm              Ebm/Gb    
 Я хочу увидеть славу Твою
   Ebm           F7        
 Наполни меня Своей любовью

B         Ebm       
  Я без Тебя не знаю пути
F7           Bm    Ab      Gb 
  Куда мне идти и как мне жить
            Ebm        F7       
  Прошу, научи меня любить
               Bm        
  Как любишь Ты

  Gb     Db  Ebm      Bm  
Очисти меня кровью Своей
    Gb        Db    Ebm     Bm  
Не дай мне сойти с Твоих путей

 Gbmaj9      Gb11     
Очисти нас, очисти нас

 

Добавлено: 31 авг 2010 | Smile®

  • Guest | 02 Сентябрь 2010, 02:14:07 Она уже есть в каталоге.
  • Smile® | 02 Сентябрь 2010, 15:54:25 С моей табулатурой НЕТ =)
  • Guest | 02 Октябрь 2010, 21:07:10 Посмотрите может понтавится.

    http://www.youtube.com/watch?v=9fIy7w3QDXM

    Это моя церковь.
  • rudik | 05 Октябрь 2010, 14:13:10 Слышу эту песню первый раз, поэтому ссылочка на YouTube в самый раз.

    И за аккорды спасибо. Выкладывайте ещё.
  • Smile® | 05 Октябрь 2010, 16:38:14 http://www.youtube.com/watch?v=TT-hItO1jfY
    табы снимал по этой версии

    http://www.youtube.com/watch?v=cV87puWI_tA
    а здесь пиано вообще шикарно

    Ого, сам Rudik поблагодарил??!! =)приятно ...
  • Winning | 08 Май 2012, 11:05:59 Тут что, 6-я струна на тон опущена?
  • Guest | 14 Сентябрь 2012, 15:18:05 Спасибо за табулатуру..