Password:
Login:
enter Registration      
HOME FORUM DVA DONATE
каталог христианских песен
SvenskaLatviskiБългарскиРусскийБеларуская
English
Українська

Partners of site




Guitar tuner / Тюнер для гитары

Забыли тюнер или думаете - а не купить ли...

Хороший (и бесплатный) тюнер для андроида -
Tuner - gStrings Free
(play.google.com/store/apps/details?id=org.cohortor.gstrings&hl=en)
(опробован!!!)

Неплохой тюнер для РС - хотя сторонние шумы иногда мешают + нужен нормальный ...
[2015-12-25 05:53:24]

полная версия новости >>

Alphabetical pointer of songs

# - все песни : A : B : C : D : E : F : G : H : I : J : K : L : M : N : O : P : Q : R : S : T : U : V : W : Y : Z : X :
А : Б : В : Г : Д : Е : Ж : З : И : І : Й : К : Л : М : Н : О : П : Р : С : Т : У : Ф : Х : Ц : Ч : Ш : Щ : Э : Є : Я : Ї : Ю :

Users on-line

Никого нет, а кто же тогда ты)

Statistics of site

# In all the songs in a catalogue 9536
# In all with chords 6530
# In all with comments 3553
# In all the users 8303

Me Viniste a Rescatar /TABS/ (Espanol)

To pass to the list of songs which names begin on the letter M
  • Artist: Hillsong Español
  • Album: Unidos Permanecemos
  • Language: English
  • Track Number: 6
  • Selected by: Eugene Seredyuk
  • Other name: Came To My Rescue
  • Тематика: Поклонение  Прославление  
  • Songs of the album:
     

393+4     


<< - Показать версию без аккордов - >>

Intro Y Verso

--------|-3--------5--|-3------|----------------|
-5------|-3-(x5)--3-3-|--------|-6-(x4)-6-6-6-6-|
-5-(x8)-|--------5----|-5-(x8)-|-5------4-5-4-5-|
--------|-------------|--------|----------------|
--------|-------------|--------|----------------|
--------|-------------|--------|----------------|

C........G.............Am7......F

Un gran saludo a los jovenes de la iglesia de betesda, chile
www.betesda.cl
agreguenme a su msn

Intro: C G Am F C G/B Am F
C                   G
Vengo ante ti postrado,
Am          F            C

con todo mi ser te quiero ver,
G/B            Am   F
tuyo soy, Señor.

C                     G
Mi vida pongo en tus manos,
Am              F               C
Dios de gracia, vengo en humildad,
         G/B                  Am F
En tu presencia quiero estar.

C          G/B Am   F             C
Clamé, me oíste, me viniste a rescatar,
          G/B        Am F
Contigo quiero estar.

F C G Am F

Am             G/B            C
////Con mi fe te exaltaré,
                      G/D  Am
Con mi amor te exaltaré,
                 G  F (G) F
Con mi ser te exaltaré.////



==========================================


 Introduccion y Verso:

 e|--------|-3--------5--|-3------|----------------|
 B|-5------|-3-(x5)--3-3-|--------|-6-(x4)-6-6-6-6-|
 G|-5-(x8)-|--------5----|-5-(x8)-|-5------4-5-4-5-|
 D|--------|-------------|--------|----------------|
 A|--------|-------------|--------|----------------|
 E|--------|-------------|--------|----------------|



 Puente:

 e|------------------|
 B|-13------12-------|
 G|-12-(x4)-12-(x4)--|(x3)
 D|-10------10-------|
 A|------------------|
 E|------------------|

 e|---------------------|
 B|-13--13------13------|
 G|-12--10-(x4)-9--(x3)-|
 D|-10--10------10------|
 A|---------------------|
 E|---------------------|


 e|------------------|
 B|-13------12-------|
 G|-12-(x4)-12-(x4)--|(x2)
 D|-10------10-------|
 A|------------------|
 E|------------------|


 e|---------------------------------------------|
 B|-13------------------------------------------|
 G|-10-(x4)-------------------------------------|(x2)
 D|-10------------------------------------------|
 A|---------------------------------------------|
 E|---------------------------------------------|

 

Added: 26 сен 2012 | Eugene