Password:
Login:
enter Registration      
HOME FORUM DVA DONATE
каталог христианских песен
SvenskaLatviskiБългарскиРусскийБеларуская
English
Українська

Partners of site




Guitar tuner / Тюнер для гитары

Забыли тюнер или думаете - а не купить ли...

Хороший (и бесплатный) тюнер для андроида -
Tuner - gStrings Free
(play.google.com/store/apps/details?id=org.cohortor.gstrings&hl=en)
(опробован!!!)

Неплохой тюнер для РС - хотя сторонние шумы иногда мешают + нужен нормальный ...
[2015-12-25 05:53:24]

полная версия новости >>

Alphabetical pointer of songs

# - все песни : A : B : C : D : E : F : G : H : I : J : K : L : M : N : O : P : Q : R : S : T : U : V : W : Y : Z : X :
А : Б : В : Г : Д : Е : Ж : З : И : І : Й : К : Л : М : Н : О : П : Р : С : Т : У : Ф : Х : Ц : Ч : Ш : Щ : Э : Є : Я : Ї : Ю :

Users on-line

Никого нет, а кто же тогда ты)

Statistics of site

# In all the songs in a catalogue 9700
# In all with chords 6682
# In all with comments 3752
# In all the users 8408

La Revolucion /TABS/ (Espanol)

To pass to the list of songs which names begin on the letter L
  • Artist: Hillsong Español
  • Album: Unidos Permanecemos
  • Language: English
  • Track Number: 11
  • Selected by: Eugene Seredyuk
  • Other name: Revolution
  • Тематика: Поклонение  Прославление  
  • Songs of the album:
     

724+1     


<< - Показать версию без аккордов - >>

(intro)
B-14-14-14-14----12-12-12-12-----11-11-11-11---12-12-12-12-
G-11-11-11-11----11-11-11-11-----11-11-11-11---11-11-11-11-
D----------------------------------------------------------
A----------------------------------------------------------
E----------------------------------------------------------

e----------------------------------------------------------
B-12-12-12-12---11-11-11-11---9--9--9--9-----12-12-12-12---
G-11-11-11-11---11-11-11-11---10-10-10-10----10-10-10-10---
D----------------------------------------------------------
  (X2)
A----------------------------------------------------------
E----------------------------------------------------------


D#m
Generación de salvación, vamos.
e--------------------------------------------------
B-----------14-14-14-14-----------12-12-12-12------
G------11-11-----------------11-11-----------------
D-13-13-----------------13-13----------------------
A--------------------------------------------------
E--------------------------------------------------

D#m
Avivamiento vamos a ver,

Nada nos podrá parar.
e----------------------------------------------
B-----------14-14-14-14-----------12-12-12-12--
G------11-11-----------------11-11-------------
D-13-13-----------------13-13------------------
A----------------------------------------------
E----------------------------------------------


G#m                       B
Nos levantaremos para proclamar

  F#      B       G#m7
 Que Jesús es el Señor,
D#m                   F#         B
como Él no hay otro, vamos a gritar,
G#m7
Que el mundo pueda ver.

B-14-14-14-14----12-12-12-12-----11-11-11-11---12-12-12-12-
G-11-11-11-11----11-11-11-11-----11-11-11-11---11-11-11-11-
D----------------------------------------------------------
A----------------------------------------------------------
E----------------------------------------------------------

e--------------------------------------------------------
B-12-12-12-12---11-11-11-11---9--9--9--9-----12-12-12-12-
G-11-11-11-11---11-11-11-11---10-10-10-10----10-10-10-10-
D--------------------------------------------------------
A--------------------------------------------------------
E--------------------------------------------------------

   D#m
 Generación de salvación, vivo por ti.
e-------------------------------------------------------
B-----------14-14-14-14-----------12-12-12-12-
G------11-11-----------------11-11-----------------
D-13-13-----------------13-13----------------------
A-------------------------------------------------------
E--------------------------------------------------------



D#m
Avivamiento vamos a ver,

Nada nos podrá parar.
e----------------------------------------------
B-----------14-14-14-14-----------12-12-12-12--
G------11-11-----------------11-11-------------
D-13-13-----------------13-13------------------
A----------------------------------------------
E----------------------------------------------

G#m                       B
Nos levantaremos para proclamar
   F#   B          G#m7
 Que Jesús es el Señor,
       D#m           F#          B
como Él no hay otro, vamos a gritar,
G#m7
Que el mundo pueda ver.
F#       B        G#m7
Que Jesús es el Señor,
        D#m           F#        B
como Él no hay otro, vamos a gritar,
G#m7
Que el mundo pueda ver.



e----------------------------------------------
B-----------14-14-14-14-----------12-12-12-12--
G------11-11-----------------11-11-------------
D-13-13-----------------13-13------------------
A----------------------------------------------
E----------------------------------------------

e----------------------------------------------
B-----------11-11-11-11-----------12-12-12-12--
G------11-11-----------------11-11-------------
D-13-13-----------------13-13------------------
A----------------------------------------------
E----------------------------------------------

e----------------------------------------------
B-----------12-12-12-12-----------11-11-11-11--
G------11-11-----------------11-11-------------
D-11-11-----------------11-11------------------
A----------------------------------------------
E----------------------------------------------

e----------------------------------------------
B-----------9-9-9-9-----------12-12-12-12------
G------10-10-------------10-10-----------------
D-11-11-------------12-12----------------------  ( All X2)
A----------------------------------------------
E----------------------------------------------




D#m
Esta la generación,

vivimos por tu nombre, oh Dios.


e--------------------------------
B--------------------------------
G-------6-6-6-6-------6-6-6-6----
D----4-4-----------4-4-----------
A-6-6-----------6-6--------------

D#m
Esta es la revolución,

El mundo vamos a cambiar.
e--------------------------------
B--------------------------------
G-------6-6-6-6-------6-6-6-6----
D----4-4-----------4-4-----------
A-6-6-----------6-6--------------

Que el mundo pueda ver,  Que el mundo pueda ver
e-------------------------------------------------------------
B-------------------------------------------------------------
G-------6-6-6-6--------6-6-6-6---------6-6-6-6--------6-6-6-6-
D----4-4------------4-4------------4-4------------4-4---------
A-2-2-----------2-2-------------------------------------------
E-------------------------------6-6------------6-6------------

                          Que vivimos por ti con todo
nuestro ser
e---------------------------------------------------------------
B--------6-6----------------------------------------------------
G----6-6----6-6--------7-7-----------------4-4------------4-4---
D-----------------8-8-------8-8---------4-4------------4-4------
A-4-4----------5-5-------------4-4-6-6---------4-4-6-6----------(X2)
E---------------------------------------------------------------

D#m
Que el mundo pueda ver,
B
Que el mundo pueda ver.
F#     B          G#m7
 Que Jesús es el Señor,
     D#m             F#          B
como Él no hay otro, vamos a gritar,
G#m7
Que el mundo pueda ver.
F#    B          G#m7
Que Jesús es el Señor,
D#m                  F#            B
como Él no hay otro, vamos a gritar,
G#m7
Que el mundo pueda ver.

F#
Que el mundo pueda ver,

B
Que el mundo pueda ver,

F#
Que el mundo pueda ver,
B                      F#
Esta es la revolución   [X2]

 

Added: 26 сен 2012 | Eugene