Пароль:
Логин:
каталог христианских песен
SvenskaLatviskiБългарски
Русский
БеларускаяEnglishУкраїнська

Партнеры сайта




Guitar tuner / Тюнер для гитары

Забыли тюнер или думаете - а не купить ли...

Хороший (и бесплатный) тюнер для андроида -
Tuner - gStrings Free
(play.google.com/store/apps/details?id=org.cohortor.gstrings&hl=en)
(опробован!!!)

Неплохой тюнер для РС - хотя сторонние шумы иногда мешают + нужен нормальный ...
[2015-12-25 05:53:24]

полная версия новости >>

Алфавитный указатель песен

# - все песни : A : B : C : D : E : F : G : H : I : J : K : L : M : N : O : P : Q : R : S : T : U : V : W : Y : Z : X :
А : Б : В : Г : Д : Е : Ж : З : И : І : Й : К : Л : М : Н : О : П : Р : С : Т : У : Ф : Х : Ц : Ч : Ш : Щ : Э : Є : Я : Ї : Ю :

Пользователи онлайн

Никого нет, а кто же тогда ты)

Статистика сайта

# Всего песен в каталоге 9460
# Всего с аккордами 6482
# Всего с комментариями 3509
# Всего пользователей 8266

By Your Side

Перейти к списку песен, названия которых начинаются на букву B

429+2     


<< - Показать версию без аккордов - >>

Intro (play twice)

e|---------------------------------------------------------------------------|
B|-----------------0-----------------------------0---------------------------|
G|------0-------0-----0------0--------0-------0-----0------0-----------------|
D|----------12-----------12---------------12-----------12--------------------|
A|---10---------------------------10-----------------------------------------|
E|---------------------------------------------------------------------------|

e|---------------------------------------------------------------------------|
B|---------------0-----------------------0-----------------------------------|
G|------0-----0-----0-----0-----0-----0-----0-----0--------------------------|
D|---------9-----------9-----------9-----------9-----------------------------|
A|---7-----------------------7-----------------------------------------------|
E|---------------------------------------------------------------------------|

e|---------------------------------------------------------------------------|
B|---------------0-----------------------0-----------------------------------|
G|------0-----0-----0-----0------0----0-----0-----0--------------------------|
D|---------7-----------7-----------7-----------7-----------------------------|
A|---5------------------------5----------------------------------------------|
E|---------------------------------------------------------------------------|

e|---------------------------------------------------------------------------|
B|---------------0-----------------------0-----------------------------------|
G|------0-----0-----0------0-----0----0-----0-----0--------------------------|
D|---------5-----------5-----------5-----------5-----------------------------|
A|---3------------------------3----------------------------------------------|
E|---------------------------------------------------------------------------|



Intro: G   Em   D   C

Verse 1:
            G
Why are you striving these days?
            Em
Why are you trying to earn grace?
            D                            C
Why are you crying?  Let me lift up your face
                G
Just don’t turn away

Verse 2:
            G
Why are you looking for love?
                  Em
Why are you still searching as if I’m not enough?
                  D
To where will you go child?
                       C
Tell me where will you run?
                  G
To where will you run?

Chorus:
              Em                        C
Cause I’ll be by your side wherever you fall
       G                 D
In the dead of night whenever you call
    Em                       C                      G
And please don’t fight these hands that are holding you
     D                    G   
Yeah My hands are holding you

Verse 3:
              G
Look at these hands, and My side
                   Em 
They swallowed the grave on that night
                         D                        C
When I drank the world’s sin so I could carry you in
             G                      D
And give you life, I wanna give you life

Bridge:
      D         Em
Cause I, I love you
       C      D
I want you to know
     D         Em
That I, I love you
     C             D
I’ll never let you go 

 

Добавлено: 14 апр 2010 | Артём

  • Leonid Raenko | 01 Октябрь 2015, 00:33:13 Intro: G Em D C

    Verse 1:
    G
    Why are you striving these days?
    В чем смысл бороться все дни?
    Em
    Why are you trying to earn grace?
    И добиваться Моей милости?
    D C
    Why are you crying? Let me lift up your face
    Зачем плачешь ты? Позволь направить Тебя
    G
    Just don’t turn away
    Прошу, смотри на Меня

    Verse 2:
    G
    Why are you looking for love?
    В чем смысл искать любви?
    Em
    Why are you still searching as if I’m not enough?
    Будто любви во Мне не найти
    D
    To where will you go child?
    Куда ты пойдешь, дитя?
    C
    Tell me where will you run?
    Скажи, куда побежишь?
    G
    To where will you run?
    И где будешь ты?

    Chorus:
    Em C
    Cause I’ll be by your side wherever you fall
    Ведь Я с тобой всегда, где бы ты ни пал
    G D
    In the dead of night whenever you call
    Средь смертной тьмы, где бы ты ни звал
    Em C G
    And please don’t fight these hands that are holding you
    О, прошу, прими Мои руки, что хранят тебя
    D G
    Yeah My hands are holding you
    Ведь они хранят тебя