Password:
Login:
enter Registration      
HOME FORUM DVA DONATE
каталог христианских песен
SvenskaLatviskiБългарскиРусскийБеларуская
English
Українська

Partners of site




Guitar tuner / Тюнер для гитары

Забыли тюнер или думаете - а не купить ли...

Хороший (и бесплатный) тюнер для андроида -
Tuner - gStrings Free
(play.google.com/store/apps/details?id=org.cohortor.gstrings&hl=en)
(опробован!!!)

Неплохой тюнер для РС - хотя сторонние шумы иногда мешают + нужен нормальный ...
[2015-12-25 05:53:24]

полная версия новости >>

Alphabetical pointer of songs

# - все песни : A : B : C : D : E : F : G : H : I : J : K : L : M : N : O : P : Q : R : S : T : U : V : W : Y : Z : X :
А : Б : В : Г : Д : Е : Ж : З : И : І : Й : К : Л : М : Н : О : П : Р : С : Т : У : Ф : Х : Ц : Ч : Ш : Щ : Э : Є : Я : Ї : Ю :

Users on-line

Никого нет, а кто же тогда ты)

Statistics of site

# In all the songs in a catalogue 9665
# In all with chords 6651
# In all with comments 3673
# In all the users 8387

Alive [TAB]

To pass to the list of songs which names begin on the letter A
  • Artist: P.O.D
  • Album: Satellite
  • Language: English
  • Track Number: 2
  • Selected by: ot sergeja365(Sergej Popov).
  • Songs of the album:
     

228+2     


<< - Показать версию без аккордов - >>

Gitarru nado nastroit na: D G C F A D


Intro and Verse - 0:01-0:35
|-------------------------------------------------|
|-------------------------------------------------|
|-----------------------5-5-5-5-5--5-5-5-5--------| x6
|-2-2-2-0-2---7-7-7-7---5-5-5-5-5--5-5-5-5--5-5-5-|
|-2-2-2-0-2---7-7-7-7---3-3-3-3-3--3-3-3-3--5-5-5-|
|-2-2-2-0-2---5-5-5-5-----------------------5-5-5-|


Chorus - 0:36-0:59
|--------------------------------------------------------------------------|
|--------------------------------------------------------------------------|
|-----------------5-5-5-5-5-5-5---7-7-7-7-7-7-7-----7-7-7-7----------------|
x2
|-7-7-7-7-7-7-7---5-5-5-5-5-5-5---7-7-7-7-7-7-7--0--7-7-7-7--------5-------|
|-7-7-7-7-7-7-7---3-3-3-3-3-3-3---5-5-5-5-5-5-5--0--5-5-5-5--9-8-0---7-6-0-|
|-5-5-5-5-5-5-5---0-0-0-0-0-0-0---0-0-0-0-0-0-0--0--0-0-0-0----------------|


Verse - 1:00-1:23
|------------------------------------------------|
|------------------------------------------------|
|-----------------------5-5-5-5---5-5-5-5--------| x4
|-2-2-2-0-2---7-7-7-7---5-5-5-5---5-5-5-5--5-5-5-|
|-2-2-2-0-2---7-7-7-7---3-3-3-3---3-3-3-3--5-5-5-|
|-2-2-2-0-2---5-5-5-5----------------------5-5-5-|


Chorus - 1:23 - 1:47
|--------------------------------------------------------------------------|
|--------------------------------------------------------------------------|
|-----------------5-5-5-5-5-5-5---7-7-7-7-7-7-7-----7-7-7-7----------------|
x2
|-7-7-7-7-7-7-7---5-5-5-5-5-5-5---7-7-7-7-7-7-7--0--7-7-7-7--------5-------|
|-7-7-7-7-7-7-7---3-3-3-3-3-3-3---5-5-5-5-5-5-5--0--5-5-5-5--9-8-0---7-6-0-|
|-5-5-5-5-5-5-5---0-0-0-0-0-0-0---0-0-0-0-0-0-0--0--0-0-0-0----------------|


Bridge 1:47 - 2:22 (with phaser or flanger effect)
|----------|     |-14h15p14-|      |----------|     |-14h15p14-|
|----------|     |----------|      |----------|     |----------|
|----------| x1  |----------| x10  |----------| x2 
|----------| x10
|---6-5--0-|     |----------|      |---6-5--0-|     |----------|
|-5--------|     |----------|      |-5--------|     |----------|
|----------|     |----------|      |----------|     |----------|


Chorus - 2:23 - 3:08 (there's some high pitched 14 & 15s as
in the previous section in between)
|--------------------------------------------------------------------------|
|--------------------------------------------------------------------------|
|-----------------5-5-5-5-5-5-5---7-7-7-7-7-7-7-----7-7-7-7----------------|
x3
|-7-7-7-7-7-7-7---5-5-5-5-5-5-5---7-7-7-7-7-7-7--0--7-7-7-7--------5-------|
|-7-7-7-7-7-7-7---3-3-3-3-3-3-3---5-5-5-5-5-5-5--0--5-5-5-5--9-8-0---7-6-0-|
|-5-5-5-5-5-5-5---0-0-0-0-0-0-0---0-0-0-0-0-0-0--0--0-0-0-0----------------|


Outro 3:10 - 3:21
|------------------------|
|------------------------|
|------------------------| x4
|-2-2-2-0-2--0-0-0-2-0-2-|
|-2-2-2-0-2--0-0-0-2-0-2-|
|-2-2-2-0-2--0-0-0-2-0-2-|

 

Added: 22 май 2007 | Sergej