Tu Estas Aqui /TABS/ (Espanol)


Este es el principio de la parte de la cancion que suena
con el piano

e--2-4-0---0-2-4-0---7-5-4--2-4-0-------------e
B---------0-----------------0-0----2-0-0-0-0--B
G-------------------6-----------2-------------G
D--2-------------------------------2-2-2-1-1--D
A------------4--------------------------------A
E---------------------------------------------E

Esta es la misma parte pero con mas notas

e--2-0-4-0---0-2-4-0---7-5-4--2-4-0-------------e
B---0-------0-----------------0-0----2-0-0-0-0--B
G-------4-------------6-----------2-------------G
D--2---------------------------------2-2-2-1-1--D
A--------------4--------------------------------A
E-----------------------------------------------E

Intro: E C#m A B

           E                  C#m
Aunque mis ojos, no te puedan ver,
             A                   E-B
te puedo sentir, se que estas aqui.

            E                 C#m
Aunque mis manos, no puedan tocar,
             A                   E-B
tu rostro senor, se que estas aqui.


CORO:(Aqui les traigo el sonido del coro)

e------0-0-3-3-----------0-0----
B--4-4---------0-0---4-4-----0-0
G-------------------------------   Se repite en la
cancion varias veces
D--1-1-2-2-5-5-------1-1-2-2----
A--------------2-2-----------2-2
E-------------------------------

       C#m            A                  E              B
Mi corazón, puede sentir tu presencia, tu estas aqui, tu
estas aqui.


 C#m           A             E              B
Puedo sentir, tu majestad, tu estas aqui, tu estas aqui.


        C#m          A                  E              B
Mi corazón, puede mirar tu hermosura, tu estas aqui, tu
estas aqui.


C#m           A               E              B
Puedo sentir, tu gran amor, tu estas aqui, tu estas aqui.


           C#m            B
FINAL: //Tu estas aqui, tu estas aqui//


___________________________________