From The Inside Out (Electric Guitar Solo)

e-----------------------------------------------------------------|
b-13-13-13-13-13-13-13-13-13-13-13-13-13-13-13-13-----------------|
G-14-14-14-14-14-14-14-14h12-12-12-12-12-12-12-12-----------------|
D-----------------------------------------------------------------|
A-----------------------------------------------------------------|
E-----------------------------------------------------------------|

e-----------------------------------------------------------------|
b-17-17-17-17-17-17-17-17/18-18-18-18-18-18-18-18-----------------|
G-17-17-17-17-17-17-17-17-17-17-17-17-17-17-17-17-----------------|
D-----------------------------------------------------------------|
A-----------------------------------------------------------------|
E-----------------------------------------------------------------|

e---------------------------------------------------------------(12)----|
b--13h12----------13h12-------------------------------------12(13)------|
G--------14/16\12--------14-14-14/16\12------------------14-------------|
D----------------------------------------14-15-14-12~ ~
~--14-----------|
A-----------------------------------------------------------------------|
E-----------------------------------------------------------------------|


e-----------------------------------------------------------------|
b-13-12-------17-17-17-17-17-17-17-17-17-17-----------------------|
G-------14/16/17----------17--------------------------------------|
D-----------------------------------------------------------------|
A-----------------------------------------------------------------|
E-----------------------------------------------------------------|

e-----------------------------------------------------------------|
b-13-12-------17-17-17-17-17-17-17-17-17-17-----------------------|
G-------14/16/17----------17--------------------------------------|
D-----------------------------------------------------------------|
A-----------------------------------------------------------------|
E-----------------------------------------------------------------|

e-----17-----17-----17----17-----17-------19 ~--------------
b--15-----15-----15----15-----15----15/17-------------------------|
G-----------------------------------------------------------------|
D-----------------------------------------------------------------|
A-----------------------------------------------------------------|
E-----------------------------------------------------------------|